legend

legend

admin
DARK
file name
guitar_0000
status
last edit
Jul 9, 2021 4:44 AM
word count
248

x -- dead note h -- hammer on p -- pull off + -- tapping < > -- natural harmonic n< > -- artificial harmonic; where n is the left-hand fret number [e.g. 9<21>] b -- bend s -- slide ~ -- vibrato () -- ghost note < -- accentuated note m -- palm mute . -- staccato = -- tremolo picking v -- up ^ -- down P -- thumb (right hand) I -- index (right hand) M -- middle (right hand) A -- 3rd finger (right hand) f0 -- thumb fret (left hand) f1 -- index fret (left hand) f2 -- middle fret (left hand) f3 -- 3rd finger fret (left hand) f4 -- 4th finger fret (left hand)

8-string layout:

E |-----------------------0----|
B |--------------------0-------|
G |-----------------0----------|
D |--------------0-------------|
A |-----------0----------------|
E |--------0-------------------|
B |-----0----------------------|
F#|--0-------------------------|

8-string layout

+ example info [palm-muting]:

E |-----------------------0m---|
B |--------------------0m------|
G |-----------------0m---------|
D |--------------0m------------|
A |-----------0m---------------|
E |--------0m------------------|
B |-----0m---------------------|
F#|--0m------------------------|

8-string layout

+ example info [palm-muting]

+ more info [fingerstyle pattern]

E |-----------------------0m---|
B |--------------------0m------|
G |-----------------0m---------|
D |--------------0m------------|
A |-----------0m---------------|
E |--------0m------------------|
B |-----0m---------------------|
F#|--0m------------------------|

L |--P--I--M--A--P--I--M--A----|

8-string layout

+ example info [palm-muting]

+ more info [fingerstyle pattern]

+ more info [ghost notes]

L |--m---m---m---m---m---m---m---m----|

E |-----------------------------(0)--|
B |-------------------------(0)------|
G |---------------------(0)----------|
D |-----------------(0)--------------|
A |-------------(0)------------------|
E |---------(0)----------------------|
B |-----(0)--------------------------|
F#|-(0)------------------------------|

L |--P---I---M---A---P---I---M---A---|

8-string layout

+ example info [palm-muting]

+ more info [fingerstyle pattern]

+ more info [ghost notes] + more info [staccato]

L |--m---m---m---m---m---m---m---m----|

E |-----------------------------(0)--|
B |-------------------------(0)------|
G |---------------------(0)----------|
D |-----------------(0)--------------|
A |-------------(0)------------------|
E |---------(0)----------------------|
B |-----(0)--------------------------|
F#|-(0)------------------------------|

L |--P---I---M---A---P---I---M---A---|
L |--.---.---.---.---.---.---.---.---|